Questo forum è aperto a tutti coloro che hanno la musica nel cuore, e soprattutto che vogliono esprimersi attraverso la MUSICA


    IL BASSO ELETTRICO

    Condividere
    avatar
    Lollo_&_Steo
    Admin

    Messaggi : 71
    Data d'iscrizione : 21.03.09

    IL BASSO ELETTRICO

    Messaggio  Lollo_&_Steo il Gio Apr 02, 2009 3:41 pm

    IN QUESTA SEZIONE POTETE SCRIVERE COME SI SUONA IL BASSO E AGGIUNGERE SPARTITI(NATURAMENTE PER IL BASSO)DI OGNI GENERE!

    LINKIN-PARK-4-€V€R

    Messaggi : 16
    Data d'iscrizione : 01.04.09
    Età : 21
    Località : torino

    Re: IL BASSO ELETTRICO

    Messaggio  LINKIN-PARK-4-€V€R il Lun Apr 20, 2009 3:29 pm

    ti aggiungo subito le tab di IN THE END dei linkin

    Verse
    G-----------------------------------------------------------------------
    D-----------------------------------------------------------------------
    A-----------------------------------------------------------------------
    E-----------------------------------------------------------------------
    B-4-4-4-4-4-2-4-4--2-2-2-2-2-0-2-2--0-0-0-0-0-0-0-0-0-2-2-2-2-2-0-2-2---

    Chorus
    G-----------------------------------------------------------
    D-----------------------------------------------------------
    A-----------------------------------------------------------
    E----------------2--2-2-2-2-2-2-----------------------------
    B-4--4-4-4-4-4-4----------------2--2-2-2-2-2-2-0-0-0-0-2-2--

    Bridge
    G------------------------------
    D-----------------8------------
    A---------------6---6-4---2----
    E-----------------------2------
    B-4--2--0--2--4-------------2~-
    ~- hold note
    SONG ORDER
    Verse 4x
    Chorus 2x
    Verse 4x
    Chorus 2x
    Bridge 1x
    Chorus 5x

      La data/ora di oggi è Sab Set 23, 2017 5:00 am